Главная » Каталог аккордов » Российские исполнители » Б » Би-2 » Держаться за воздух

Би-2 - Держаться за воздух

Вступление:

D||---1--2---------------|
A||---------0------------|  > 14 раз
E||----------------------|

E||------5-----5----7------------------|
B||---5-----5--------------------------| > 2 раза
G||--------------------5--7--5--5------|  

E||------5-----5----7------------------|
B||---5-----5--------------------------| > 2 раза
G||--------------------4--5--4--4------|      

               Am
В окнах гаснет свет, как будто навсегда.
               G            E
Уходит из-под ног чужая планета.

Полцарства за билет оплачено сполна.
Из тысячи дорог я выбираю эту.

    Держаться за воздух, за острые звезды.
    Огромного неба коснуться рукой.
    Держаться за воздух, за острые звезды.
    И там над землей дышать им с тобой.


Мой зеркальный враг мне верен до конца.
И на ветру дрожат воздушные своды.
Как трудно сделать шаг, еще сложнее два.
Дорога наугад, я выбрал свободу.

Проигрыш:
 
D||--7-7-7-7-5-5-5---7-7-7-7-9-9-5-5-7-7-7-7-5-5-5---7-7-7-7-9-9-5----|

D||--12-12-12-12-9-9-9--12-12-12-12-9-9-9---3-3-3-3-5-5-6-------------|

    Припев > 2 раза

Кода = Вступление

Другие песни исполнителя: