Главная » Каталог аккордов » Российские исполнители » Б » Би-2 » Феллини

Би-2 - Феллини

Основная мелодия песни:
                                                            
E||-----------------------------------------------------------
B||-----------------------------------------------------------
G||-----------------------------------------------------------
D||-----------------------------------------------------------
A||--5----5/---11------5----5/---11------5----5/---11----0----
E||-----------------------------------------------------------


                         
-----------------------||
-----------------------||
-----------------------||
-----------------------||
-----------------------||
--5----5/---11----0----||

Соло:
E||----------------------|----------------------|
B||--6---------6----5----|--6---------6----5----|
G||-------7--------------|-------7--------------|
D||----------------------|----------------------|
A||----------------------|----------------------|
E||----------------------|----------------------|


                                               
----------------------|--5----5----5----0----||
--6---------6----5----|----------------------||
-------7--------------|----------------------||
----------------------|----------------------||
----------------------|----------------------||
----------------------|----------------------||

        D5        D5    D5        A5        D5    D5 D5 D5 A5
1. В одном из неснятых фильмов Федерико Феллини,
       D5          D5    D5       A5         D5    D5 D5 D5 A5
   На тоненькой льдине,        в бокале Мартини.
     D5     D5  D5 A5     D5       D5  D5 A5
   Герой на героине,     героиня на героине,
      D5       D5   D5  A5            D5  D5 D5 D5 A5       
   И двойная сплошная пролегла между ними.            
   
2. Между ними секунду назад было жарко,
   А теперь между ними лежат снега Килиманджаро.
   Патроны в магазине, глазами на резине,
   И отравленный воздух глотают так жадно.
 Зря...   
 
  Припев (2x):

  Зря ты думаешь о смерти
  Я хочу найти письмо в пустом конверте
  И прочесть...тебеее
3.   В одном из неснятых фильмов Федерико Феллини
     Лежат снега Килиманджаро.
     Герой на героине, героиня на героине,
     И отравленный воздух глотают так жадно.
  Припев (2x):

Другие песни исполнителя: