Главная » Каталог аккордов » Российские исполнители » В » Виктор Цой (Кино) » Игра

Виктор Цой (Кино) - Игра

 Am             G                 Am
Уже поздно, все спят, и мне пора спать,
                G               C
Завтра в восемь утра начнется игра.
                G               C    G
Завтра солнце встанет в восемь утра,
 Am               G
Крепкий утренний чай,
                  Am
Крепкий утренний лед -
                G
два из правил игры ,
                C
А нарушишь - пропал,
           G
Завтра ты будеш жалеть,
        C    G
Что не спал.


Припев:
       Am
Но сейчас деревья стучат
         G
ветвями в стекла,
 Am
Ты можеш лечь и уснуть,
            G
И убитьэту ночь.
 Am
Деревья,как звери,
                 G
Царапают темные стекла,
 Am
Пока еще не поздно лечь
                G
И уснуть в эту ночь.

Ни звонков, ни шигов, ни звона ключей,
Еле слышно шаги у кровати стучат,
В этом доме все давно уже спят.
только капля за каплей из крана вода,
Только капля за каплей в течениии дня,
Завтра ты пойдеш рубить лес,
А увидиш лишь пни.

Припев

Соло.
    Am            G                  Am             G
e|-5------------------------5---------------------------
b|--5--5-7-5-3-5-3-3-5-3---5--5-7-5-3-5-3-3-5-3---------
g|----5-------------------------5-----------------------
d-------------------------------------------
a-------------------------------------------
e-------------------------------------------
    Am            G                  Am             G
e|-8----------------------------5-----------------------
b|--8--8-10-8-5-3-5-3-3-5-3---5--5-7-5-3-5-3-3-5-3------
g|----9----------------------------5--------------------
d-------------------------------------------
a-------------------------------------------
e-------------------------------------------

Другие песни исполнителя: