Главная » Каталог аккордов » Российские исполнители » Б » Би-2 » Волки

Би-2 - Волки

Intro: Hm F# G

    Hm
G|------------------------|
D|------4-4--------4-4----|
A|----------5----------5--|
E|------------------------|
Волки уходят в небеса

        F#
G|------------------------|
D|-------4-4-------4-4----|
A|-----------4---------4--|
E|------------------------|
Горят холодные глаза

        G
D|------------------------|
A|---5-5--2-------5-5--2--|
E|------------------------|
Приказа верить в чудеса

         F#                   (F#7  по желанию)
B|---------------2--------|
G|------------------------|
D|------------------------|
A|-------4-4-------4-4----|
E|-----------2---------2--|
Не поступало

        Hm
ВолкИ уходят в небеса
         F#
Горят холодные глаза
         G
Приказа верить в чудеса
         F#
Не поступало

И каждый день другая цель
То стены гор, то горы стен
И ждёт отчаянных гостей
Чужая стая

    Hm             C#7
Спиной, к ветру и всё же
           Em             F#
Вырваться может чья-то душа
    Hm           C#7
Спасёт, но не поможет
          Em         F#
Чувствую кожей, пропащая....

Не помнят слов не видят снов
Переросли своих отцов
И кажется рука бойцов
Колоть устала

Позор и слава в их крови
Хватает смерти и любви
Носколько волка не корми
Ему всё мало

Спиной, к ветру и всё же
Вырваться может чья-то душа
Спасёт, но не поможет
Чувствую кожей, пропащая....

ВолкИ уходят
ВолкИ уходят
ВолкИ уходят
ВолкИ уходяяяяяяаааа

Другие песни исполнителя: