Главная » Каталог аккордов » Российские исполнители » К » Контора » Я иду к тебе домой (Балу)

Контора - Я иду к тебе домой (Балу)

Вступление:
      Em                   Em                     Em           Em
1)---------0------|--------0-------|---------0------|--------0-------|
2)---------0------|--------0-------|---------0------|--------0-------|
3)------0-----0---|----0-----0----|------0-----0---|----0-----0----|
4)-----------------|----------------|-----------------|----------------|
5)-----------------|--2------------|-----------------|--2-------------|
6)--0-------------|----------------|--0--------------|----------------|

Куплет:
        ?              С                     ?                      D
1)-------2----|-------0-------|----------3--------|--------2----------|
2)-------0----|-------1-------|----------0--------|--------3----------|
3)----0----0--|---0-----0----|-------0-----0-----|-----2-----2------|     4 раза
4)-2----------|---------------|--------------------|--0----------------|
5)------------|-3-------------|----3--------------|--------------------|

Проигрыш:
        Am                   Am             Am                 Am
1)---------0------|-------0-------|---------0------|--------0-------|
2)---------1------|-------1-------|---------1------|-------1--------|
3)------2-----2--|-----2----2----|------2-----2---|-----2----2----|
4)----------------|--2-------------|----------------|--2-------------|
5)--0-------------|----------------|--0-------------|----------------|
6)----------------|----------------|-----------------|----------------|


Припев:
                  3 раза повтор                         
1)-------3-----------5-------------7-0-5-0-3-0---|
2)-------0-----------0------------------------------|
3)----0----0-----0-----0------0-------------------|
4)---------------------------------------------------|
5)-3-----------5-----------7-----------------------|
        1 раз
1)-------3-----------2------------0------------0-------------0---------------0------|
2)-------0-----------3------------0------------0-------------0---------------0------|
3)-----0---0------2----2------0----0------0-----0-------0-----0--------0------0--|
4)--------------0----------------------------------------------------------------------|
5)--3------------------------------------2----------------------------2---------------|
6)------------------------0-----------------------------0-----------------------------|



Бас:
4)---------5-2----------7-4---2-2-2-2--4-4-4-4--5-4-5-4-5-|
5)--3-2-3--------5-4-5------------------------------------------|


Куплет:
На дворе зажглись ночные фонари.
В окнах затухал постепенно свет.
Я иду домой по пустынным улицам,
Ветер дует мне в лицо, и я иду к тебе домой.

Припев:
  Я иду к тебе домой (3 раза)
  Вот и кончилась ГУЛЯНКА!

Бас

Куплет:
Хоть голодный я как серый волк
С парою фингалов, с царапиной на лбу.
Я иду домой после этих драк,
Руки мёрзнут на морозе, я иду к тебе домой

Припев:
  Я иду к тебе домой (3 раза)
  Вот и кончилась ГУЛЯНКА!
  Я иду к тебе домой (3 раза)
  Вот и кончилась ГУЛЯНКА!

Другие песни исполнителя:
Аккорды:


Кавер песни Я иду к тебе домой (Балу):